求This is me吉他譜

求This is me吉他譜

求This is me吉他譜

求This is me吉他譜

我不要網站

拜託請直接把簡譜貼上來

前奏也要優!!!!!!!!!

不然也可以直接寄gp檔到我的信箱

a5511548@yahoo.com.tw

謝謝~

Update:

請問elaine

可不可以給簡單一點的

就是和弦簡單一點

因為只是初學者!!!!!!!!!!!!

1 Answer

Rating
  • wong s
    Lv 7
    1 decade ago
    Best Answer

    This is me(Demi lovato)

    This is me吉他谱

    ----------4---------------2--1-----------------------------------

    --------2----2----------2---------------2--4--2-------2--4--2----

    ---3-------------------------------1-----------------------------

    -------------------4------------------------------1--------------

    -----------------------------------------------------------------

    -----------------------------------------------------------------

    bBm #F

    i’ve always been the kind of girl

    #C #G

    that hid my face

    bBm #F

    so afraid to tell the world

    #C #G

    what i’ve got to say

    bBm #F

    but i had this dream

    #C #G

    right inside of me

    bBm #F

    i’m going to let it show

    #C

    it’s time

    #G #F

    to let you know

    #G

    to let you know

    bBm #F

    this is the real, this is me

    #C

    i’m exactly where

    #G

    i’m supposed to be now

    bBm #F

    gonna let the light

    #C #G

    shine on me

    bBm

    now i found

    #F

    who i am

    #C #G

    there’s no way to hold it in

    bBm #F #C #G

    no more hiding who i want to be

    bBm #F #C #G #G #C

    this is me.......

    ----------4---------------2--1----------------------------------

    --------2----2----------2---------------2--4--2-------2--4--2---

    ---3-------------------------------1----------------------------

    -------------------4------------------------------1-------------

    ----------------------------------------------------------------

    ----------------------------------------------------------------

    2009-03-06 14:49:23 補充:

    bBm #F #C #G

    do you know what it’s like to feel so in the dark

    bBm #F #C #G

    to dream about a life where you’re the shining star

    bBm #F

    even though it seems

    #C #G

    like it’s to far away

    2009-03-06 14:50:09 補充:

    bBm #F #Fm

    i have to believe in myself

    #G

    it’s the only way

    bBm #F

    this is the real, this is me

    #C #G

    i’m exactly where i’m supposed to be now

    2009-03-06 14:50:43 補充:

    bBm #F

    gonna let the light

    #C #G

    shine on me

    bBm

    now i found

    #F

    who i am

    #C #G

    there’s no way to hold it in

    bBm #F #C #G

    no more hiding who i want to be

    2009-03-06 14:51:23 補充:

    bBm #F #C #F bBm #F #G

    this is me

    ----------------------------------------------------------11-----11----

    --------9-----------------------9--11----------9--------9----9-9-------

    2009-03-06 14:52:02 補充:

    --10-11---11-10----10--10-10-11----------10-11---11-10-----------------

    -----------------------------------------------------------------------

    -----------------------------------------------------------------------

    2009-03-06 14:52:40 補充:

    (joe)

    bBm #F

    you’re the voice i hear inside my head

    #C #G

    the reason that im singing

    #C #G

    i need to find you, i can’t find you

    2009-03-06 14:53:00 補充:

    bBm #F #C #G

    you’re the missing piece i need the song inside on me

    #C

    i need to find you

    (both) #G

    i gotta find you

    2009-03-06 14:53:16 補充:

    bBm #F

    this is the real, this is me

    #C #G

    i’m exactly where i’m supposed to be now

    bBm #F

    gonna let the light

    #C #G

    shine on me

    2009-03-06 14:53:28 補充:

    bBm

    now i found

    #F

    who i am

    #C #G

    there’s no way to hold it in

    bBm #F #C #G

    no more hiding who i want to be

    bBm

    this is me

    2009-03-06 14:53:54 補充:

    (joe)

    bBm #F #C #G

    you’re the missing piece i need the song inside on me

    bBm #F

    you are the voice i hear inside my head

    2009-03-06 14:54:06 補充:

    #C #G

    the reason that im singing

    bBm

    now i found

    #F

    who i am

    2009-03-06 14:55:18 補充:

    #C #G

    there’s no way to hold it in

    bBm #F #C #G

    no more hiding who i want to be

    bBm #F #G #C #F..........

    this is me

Still have questions? Get your answers by asking now.