最近開始瘋狂愛上Bon Jovi

有誰知道Bon Jovi的樂譜在哪買的到? 回答的送他二十點~~最好是有〝It's my life〞和〝All About Lovin' You〞的,附帶一提,『Crush』的譜已經找到了

Update:

我說的譜,指的是『鋼琴』或『吉他』呦!

4 Answers

Rating
  • Anonymous
    2 decades ago
    Favorite Answer

    很抱歉,找不到你要的,我只找到"新的方向"有賣

    我先提供你三首always ,all about loving you,it,s my life,

    你如果要買的話yahoo有,但比較貴,下面地ˋ下面第二個網址是博客來,必較便宜,但這張都沒有all about loving you跟it,s my lif,

    http://tw.f2.page.bid.yahoo.com/tw/auction/b114297...

    http://tw.f2.page.bid.yahoo.com/tw/auction/b114297...

    我幫你查過了,另一個網路上(博客來缺貨),如果網上你不方便的話

    誠品應該買的到,不然就去唱片行問問摟

    ALWAYS

    C#m

    This romeo is bleeding

    B

    but you can't his blood

    A

    it's nothing but some feelings

    F#m B

    that this old dog kicked up

    C#m

    it's been raining since you left me

    B

    now I'm drowning in the flood

    A

    you see I've always been a fighter

    F#m B

    but without you I give up

    C#m

    now I can't sing a love song

    B

    like the way it's ment to be

    A B

    well, I guess I'm not that good anymore

    A B

    but baby, thats just me

    E B

    yeah, I will love you

    A C#m B

    baby - al--ways

    E B A

    and I'll be there forever and a day

    C#m B

    Al--ways

    E

    I'll be there till stars dont shine

    B

    till the heavens burst and

    A

    the words dont ryhme

    A

    and I know when I die, you'll be on my mind

    B A B C#m

    and I'll love you - Al--ways

    C#m

    now you're pictures that you left behind

    B

    are just memories of a different life

    A

    some that made us laugh, some that made us cry

    F#m B

    one that made you have to say goodbye

    C#m

    what I'd give to run my fingers through

    your hair

    B

    to touch your lips, to hold you near

    A

    when you say your prayers

    try to understand

    F#m B

    I've made mistakes, i'm just a man

    C#m

    when he holds you close, when he pulls you near

    B

    when he says the words that you've been

    needing to hear

    A

    I'll wish I was him `cause those words are mine

    B A B

    to say to you till the end of time

    E B

    yeah, I will love you

    A C#m B

    baby - Al--ways

    E B A

    and I'll be there forever and a day

    C#m B

    Alw-ays

    D G

    if you told me to cry for you

    A D

    I could

    G

    if you told me to die for you

    Bm

    I would

    take a look at my face

    G A

    there's no price I won't pay

    to say these words to you

    E-----------------------------------|

    B-----------------------------------|

    G-----4h6-----4-6-------------------|

    D-4/6-----4/6-----4/6-4/6p4/2-4p2---|

    A---------------------------------2-|

    E-----------------------------------|

    E--------------------------------------------------------------|

    B--------------------------------------------------------------|

    G--------------------------------------------------------------|

    D---------2-4fbp2-------2-4fb-2-------2-4fb-2---2-4-4fbp2-4~~--|

    A-----2-4---------4-2-4---------4-2-4---------4----------------|

    E-2/4----------------------------------------------------------|

    E13---12---7---7/12-12/7-7---------------7fb-|

    B14p12-12\9-9p7-7/12-12/7--9p7-7\5-7fbp5-7----|

    G---------------------------------------------|

    D---------------------------------------------|

    A---------------------------------------------|

    E---------------------------------------------|

    E----------12-12----12------12----12-12-12-------------12-14fbp12-14-16hb-16----|

    B14-12-14-14-12----12-p-14-12----12-14-14-12----12-14-----------------------14-|

    G----------------13------------13-------------13--------------------------------|

    D-------------------------------------------------------------------------------|

    A-------------------------------------------------------------------------------|

    E-------------------------------------------------------------------------------|

    A

    well, there ain't no luck

    in these loaded dice

    B

    but baby if you give me just one more try

    A

    we can pack up our old dreams

    and our lives

    B A B

    we'll find a place where the sun still shines

    E B

    yeah, I will love you

    A C#m B

    baby - Al--ways

    E B A

    and I'll be there forever and a day

    C#m B

    Alw-ays

    E

    I'll be there till the till the stars don't shine

    B

    till the heavens burst and

    A

    the words don't ryhme

    A

    and I know when I die, you'll be on my mind

    B A B E

    and I'll love you - Al--ways

    E B

    C#m B A

    all about loving you

    Send any corrections or suggestions to Drugz@drug.org (Alaa) (Egypt)

    Guitar1 (distorsion)Intro:

    E|------------------------------------------------------------|

    B|---8~---------10~---12b(13)----12h13--12-10-12-8----3/5-----|

    G|---------7---------------------12------------------------7~-|

    D|------------------------------------------------------------|

    A|------------------------------------------------------------|

    E|------------------------------------------------------------|

    (Guitar2) Intro & verse1:

    Arpeggio 1:

    G Dsus4/F# Cadd9

    E|------3--------3----------3--------3-----------3--------3------

    B|--------3--------3----------3--------3-----------3--------3----

    G|----------0--------0----------2--------2-----------0--------0--

    D|-------------------------------------------2---------2---------

    A|-------------------------------------------3---------3---------

    E|---3---------3---------2---------2-----------------------------

    G

    ---3--------3------|

    -----3--------3----|

    -------0--------0--|

    -------------------|

    -2--------2--------|

    -3--------3--------| This is for the intro and verse 1

    Looking at the pages of my life

    Faded memories of me and you

    Mistakes you know I've made a few....

    Guitar1(clean) fill1: , Guitar2 :Arpeggio 1

    Fill1:

    I took some shots......

    E|---------3----|

    B|------3-------|

    G|---0----------|

    D|--------------|

    A|--------------|

    E|--------------|x4 times

    I took some shots and fell from time to time

    Baby, you were there to pull me through

    We've been around the block a time or two..

    Guitar 1(clean) Fill2 , Guitar2 Arpeggio 1

    Fill2:

    ..time or two

    E|---3--------|

    B|-------3----|

    G|------------|

    D|------------|

    A|------------|

    E|------------|x6 times..

    I'm gonna lay it on the line

    Ask me how we've come this far

    The answer's written

    (guitar 2 : D)

    .......in my eyes

    Chorus1 :

    Guitar1 : (distorsion)

    G5 D5 C5 C5 D5 E5 C5 D5

    E|-----|----|----|-----------|-----|-------|---------|

    B|-----|----|----|-----------|-----|-------|---------|

    G|-----|--7-|--5-|-----------|-----|-7---9-|--5--7---|

    D|---5-|--7-|--5-|-----------|---5-|-7---9-|--5--7---|

    A|---5-|--5-|--3-|---3-5-6-8-|---5-|-5---7-|--3--5---|

    E|---3-|----|----|-----------|---3-|-------|---------|

    Guitar2: Strums

    G ,D ,C , C, G , D - Em ,C ,D.

    Every time I look at you, baby, I see something new

    That takes me higher than before and makes me want you more

    I don't wanna sleep tonight, dreamin's just a waste of time

    When I look at what my life's been comin' to

    I'm all about lovin' you

    Verse2 :

    Guitar1 : Fill2...

    Guitar2: STrum

    G , Dsus4/F# , Cadd9

    I've lived, I've loved, I've lost, I've paid some dues, baby

    We've been to hell and back again

    Through it all you're always my best friend

    For all the words I didn't say and all the things I didn't do

    Tonight I'm gonna find a way

    CHorus2 : repeat the chorus1

    Brigde:

    Guitar1 (distorsion):

    E|--------------------------------------------------|

    B|--------------------------------------------------|

    G|----------------------------------------------7---|

    D|----------------------------------------------7---|

    A|--------2~-----3~-----3-2----------2~-----3~--5---|

    E|---5~------------------------5~-------------------|

    Guitar2: Strum

    Am , Bm , C , C - Bm , Am , Bm , C , D.

    You can take this world away

    You're everything I am

    Just read the lines upon my face

    I'm all about lovin' you

    Solo:

    Guitar1 (distorsion):

    nah nah nah all about...

    E|--------------------------------------------------------------------------|

    B|---8-------8-------8----10-------10------10----12b(13)--12h13--12-10-12-8~|

    G|-------7-------7-----7-------7--------7-----7-----------------------------|

    D|--------------------------------------------------------------------------|

    A|--------------------------------------------------------------------------|

    E|--------------------------------------------------------------------------|

    Guitar2 : Strum

    G , D/F# , Cadd9 , G...

    ...Chorus : repeat the others chorus

    Outro:

    guitar2:

    ...all about lovin' you

    E|-------------------------------------------3-------|

    B|---------------------1---------------------3-------|

    G|---5/7--9---7---4----0---------------------0-------|

    D|---------------------2---------------------0-------|

    A|---------------------3---------------------2-------|

    E|-------------------------------------------3-------|

    it,s my life

    Intro:

    E|----------------|----------------|

    B|----------------|----------------|

    G|-5--5-----------|-5--5-----------|

    D|-5--5-----------|-5--5-----------|

    A|-3--3-----------|-3--3-----------|

    E|----------------|----------------|

    Verse:

    E|-------------------|-------------------|

    B|-------------------|-------------------|

    G|*5-(5)-------------|-5--5-x-x-5-5-----*|

    D|*5-(5)-------------|-5--5-x-x-5-5-----*|

    A|-3-(3)-------------|-3--3-x-x-3-3------|

    E|-------------------|-------------------|

    (^ play only at the second time)

    E|------------------|------------------|------|

    B|------------------|------------------|------|

    G|-5===========-x-x-|------------------|-rest-|

    D|-5===========-x-x-|-3--3-------------|------|

    A|-3===========-x-x-|-3--3-------------|------|

    E|------------------|-1--1-------------|------|

    Chorus:

    E|-------------|-------------|-------------|-------------|

    B|-------------|-------------|-------------|-------------|

    G|*5========-5-|-5========-5-|-8========-8-|-7========-7-|

    D|*5========-5-|-6========-6-|-8========-8-|-8========-8-|

    A|-3========-3-|-6========-6-|-6========-6-|-5========-5-|

    E|-------------|-4========-4-|-------------|-------------|

    E|-------------|-------------|-------------|-------------|

    B|-------------|-------------|-------------|-------------|

    G|-5========-5-|-5==========-|-------------|------------*|

    D|-5========-5-|-6==========-|-8==========-|------------*|

    A|-3========-3-|-6==========-|-8==========-|-------------|

    E|-------------|-4==========-|-6==========-|-6=====7=====|

    Repeat Intro

    Repeat Verse, at the end let the F Power Chord ring

    Repeat Chorus

    Bridge:

    1st guitar:

    E|---------------|---------------|---------------|

    B|---------------|---------------|---------------|

    G|*-------------*|*-------------*|*-------------*|

    D|*6-6--x-6-6--x*|*8-8--x-8-8--x*|*6-6--x-6-6--x*|

    A|-6-6--x-6-6--x-|-8-8--x-8-8--x-|-6-6--x-6-6--x-|

    E|-4-4--x-4-4--x-|-6-6--x-6-6--x-|-4-4--x-4-4--x-|

    E|---------------|-----------------|

    B|---------------|-----------------|

    G|---------------|-----------------|

    D|-3-3--x-3-3--x-|-3-3-3-3-3-3-3-3-|

    A|-3-3--x-3-3--x-|-3-3-3-3-3-3-3-3-|

    E|-1-1--x-1-1--x-|-1-1-1-1-1-1-1-1-|

    P.M. --==release

    2nd guitar(solo):

    E|-------------------------------------------------------------------|

    B|-----------------------------------7b8--8-8-8b7\6-4-6--------------|

    G|-7b8b7b8-etc........7b8b7p5----5-8--------------------3-5~~--------|

    D|-----------------------------6---------------------------------1---|

    A|-------------------------------------------------------------1---1-|

    E|-----------------------------------------------------------3-------|

    Both guitars:

    E|---------------------|

    B|---------------------|

    G|-5===========-5--5---|

    D|-5===========-5--5---|

    A|-3===========-3--3---|

    E|---------------------|

    Repeat chorus 4x

    2005-03-25 19:09:26 補充:

    沒錯我也是!!我被他的all about loving you深深感動~mv也拍的很讚

    你也喜歡這首嗎

    2005-03-26 17:28:20 補充:

    恩恩!!

  • 1 decade ago

    事實上... 博客來網路書店有很多呢 !

    輸入關鍵字邦喬飛找找看,還蠻多ㄉ~~

    多多少少都還有一些庫存 !

    我看ㄌ很想買下來,但感覺上很難練的起來= = ~

  • 2 decades ago

    你可以到西門町的"雜誌瘋"找找..

    台北市武昌街二段7號..

    裡面相當樂譜齊全!!

  • 2 decades ago

    All About Lovin' You是最令人感動的情歌了~對Bon Jovi真有種相見恨晚的感覺,真想對他們說『Every time I look at you,baby I see something new,You take me higher than before,you make me want you more!』

    2005-03-26 10:23:05 補充:

    Always蠻好聽的呀,歌詞很感人,不過我現在最喜歡的應該是Everyday和Bounce吧!下次可以交流一下呦

Still have questions? Get your answers by asking now.